domingo, 1 de fevereiro de 2015

Iron Man - Black Sabbath

Tablatura do solo que o Jean F. Dutra fez da música Iron Man da banda de Rock a Black Sabbath.

Pessoal, esse é um solo de música de rock na viola e quem não gostar desse tipo de "transação" do rock para a viola basta apenas ignorar a tablatura.


---------------------------------------
---------------------------------------
---------------------------------------
--------0-0----3-2--3-2--3-2------0-0--
-0-3--3-----------------------3-3------

--------------------------------
--------------------------------
------------2-1-1-1------1-1-1--
-----0---------------0-4--------
-0-0----0-0---------------------

---------------------
---------------------
------------2-1-1-1--
-----0---------------
-0-0----0-0----------

quarta-feira, 28 de janeiro de 2015

Linha de Frente - Tião Carreiro

Tablatura da música Linha de Frente, Pagode cantado por Tião Carreiro e Pardinho.

E---------------------------------------------
B---------------------------------------------
G#--8/0------1^0---0-----------------1^0---0--
E----------2-----2---5-4-2---------2-----2----
B--------0-----------------5-4-2-0------------

E----------------------------------------------------
B----------------------------------------------------
G#--8/0------1^0---0-3-1-----------------------------
E----------2-----2-------4-2------------------2-3-4--
B--------0-------------------5-4-2-0--0-2-4-5--------

 E             B7              E 
Pra cantar pagode eu tirei patente 
Meu peito é bom e eu sou competente 
             B7 
Eu não tomo Toddy e nem ovo quente 
                             E 
Morra meu passado viva o presente 
Que o meu futuro está pela frente 
        B7                E 
O meu pagode pra mim não mente 

E            B7              E 
Na mão do covarde morre o valente 
O cachorro bravo esta na corrente 
           B7 
O amor ingrato é que mata a gente 
                             E 
Mulher faladeira tem meus parentes 
O marido dela é tão decente 
         B7            E 
Mas a danada é uma serpente 

E            B7             E 
Paulista trabalha São Paulo anda 
São Paulo cresce por toda banda 
           B7 
O mineiro tem o ouro que manda 
                       E 
O povo gaúcho é de opinião 
Tem gente que força a oposição 
          B7            E 
Mas a gauchada não foge não 

E          B7            E 
O povo do norte é inteligente 
O Ruy Barbosa deixou semente 
         B7 
O povo baiano orgulhoso sente 
                         E 
O paranaense é bom no batente 
O nosso Brasil tem bom presidente 
           B7              E 
Nóis no pagode é linha de frente 

sexta-feira, 23 de janeiro de 2015

Cubanita - Almir Sater



Tablatura da música Cubanita, música interpretada por Almir Sater. Tablatura transcrita e postada no grupo http://www.facebook.com/groups/violacaipiratablaturas/
 pelo Alexandre Oliveira

E--8--6--10-----10----8-----10------6---6----5--8-----3---3---3---1---
 B---------------------------------------------------------------------
G#-7--6--09--09-----7----09------6--6--6---4----7--2--2--2--2----1----
E---------------------------------------------------------------------
 B---------------------------------------------------------------------

E---6-------------------------10--10----8--8--13----6----6----5--5--8----3---
B--------4---4---------------------------------------------------------------
G#--6----------------------/9---09--7----7--13--6----6----4----4--7--2-------
E------3---3---------6-8--------------------------------------------------
B---------------6/8----------------------------------------------------------

E-----3----1--1-1-------------
B--------------------4----4---
G#--2----1----1-1-------------
E------------------3----3-----
B-----------------------------

sábado, 27 de dezembro de 2014

Mantendo a Tradição - Goiano e Paranaense

Tablatura da música Mantendo a Tradição, música interpretada pela dupla Goiano e Paranaense.
Tablatura transcrita por Allan Turilli e postada no grupo www.facebook.com/groups/violacaipiratablaturas/



intro: E B7 E (Eb Bb7)

E----------------------------\11---11-11-11-11---9---4-5-7----
  B----------------------------\12---12-12-12-12---10--5-7-9----
G#--\8---8-8--------------------------------------------------
E-------------5-4-2-------------------------------------------
B-------------------4-0---------------------------------------

E----------------------------\11---11-11-11-11---9---7-5-4----
B----------------------------\12---12-12-12-12---10--9-7-5----
G#--\8---8-8--------------------------------------------------
E-------------5-4-2-------------------------------------------
B-------------------4-0---------------------------------------

                                                         B7
viola pastora minha professora fiel defensora de uma tradição

E-----5-2----------------------------------------------------
B--------4---------------------------------------------------
G#---------3-------------------------------------------------
E------------2-----------------------------------------------
B--------------0--------------------------------------------
                              E                   B7            E     E7
Viola muralha que trouxe a medalha do chapeu de palha da nossa canção

E-----11--9-5-4----------------------------------------------
B-----12-10-7-5----------------------------------------------
G#----------------------------------------------------------
E-----------------------------------------------------------
B-----------------------------------------------------------

        A                              E           A
Viola cristã minha anfitriã alcova e divã da inspiração

E-------12-11-10-8/9----------------------------------------
B-----------------------------------------------------------
G#----------------------------------------------------------
E-----------------------------------------------------------
B-----------------------------------------------------------

       B7                 E              B7                 E
Viola batina que tanto fascina tu es a vitrine e retrata o sertão

E-----------------------------------------------------------
B-----------------------------------------------------------
G#---------7---5---1----0-----------------------------------
E---------7---5---2----0------------------------------------
B-----------------------------------------------------------

      E                                                  B7
Viola monarca minha patriarca que veio na arca do velho noé

E-----------------------------------------------------------
B-----------------------------------------------------------
G#------------------/10~------------------------------------
E---------/7~-----------------------------------------------
B-----------------------------------------------------------

        A                E                  B7                E
Viola chancela verde e amarela mantenho com ela a tradição de pé 

intro

E----------------------------\11---11-11-11-11---9---4-5-7----
B----------------------------\12---12-12-12-12---10--5-7-9----
G#--\8---8-8--------------------------------------------------
E-------------5-4-2-------------------------------------------
B-------------------4-0---------------------------------------

E----------------------------\11---11-11-11-11---9---7-5-4----
B----------------------------\12---12-12-12-12---10--9-7-5----
G#--\8---8-8--------------------------------------------------
E-------------5-4-2-------------------------------------------
B-------------------4-0---------------------------------------

                                                              B7
Viola herança que estampa lembrança e revela infancia do meu dia dia 


E-----5-2------------------------------------
B--------4-----------------------------------
G#---------3---------------------------------
E------------2-------------------------------
B--------------0-----------------------------

                            E                B7             E    E7
Viola de prata seu leito retrata que veio da nata trazendo harmonia

E---------------------------------------------
B---------------------------------------------
G#----------7-6-5-3~--------------------------
E-----------7-6-5-4~--------------------------
B---------------------------------------------

         A                                    E             A
Viola universo esteio e progresso do grande sucesso das melodias

E---------12-9--------------------------------
B------9--------------------------------------
G#--------------------------------------------
E---------------------------------------------
B---------------------------------------------

        B7                     E               B7           E
Viola essencia que embala a inocencia da sobrevivencia da poesia

E--------------------------------
B----------------------------------------------
G#----------7--5--1--0~-----------------------------
E----------7--5--2--0~------------------------------
B----------------------------------------------

       E                                                B7
Viola monarca minha patriarca que veio na arca do velho noé 

E-----5--2-------------------------------------
B----------4-----------------------------------
G#---------------------------------------------
E----------------------------------------------
B------------4h5p4-----------------------------

       A                 E                  B7                E
Viola chancela verde e amarela mantenho com ela a tradição de pé 

intro

E----------------------------\11---11-11-11-11---9---4-5-7----
B----------------------------\12---12-12-12-12---10--5-7-9----
G#--\8---8-8--------------------------------------------------
E-------------5-4-2-------------------------------------------
B-------------------4-0---------------------------------------

E----------------------------\11---11-11-11-11---9---7-5-4----
B----------------------------\12---12-12-12-12---10--9-7-5----
G#--\12---12-12-----------------------------------------------
E---------------5-4-2-----------------------------------------
B---------------------4-0-------------------------------------

E---------------------------
B---------------------------
G#--------7-6-5-3~----------
E---------7-6-5-4~----------
B---------------------------

E                                                  B7
Viola bastão elo da união da nossa canção raiz e direta

E------5-2------------------------------
B----------4----------------------------
G#-----------3--------------------------
E--------------2------------------------
B----------------4----------------------

                         E                B7               E      E7
Viola patroa que canta e entoa por musica boa esta sempre alerta

E------------11-10-9--7~-----------
B------------12-11-10-9~-----------
G#---------------------------------
E----------------------------------
B----------------------------------
t
          A                                E                   A
Viola breijeira que cheira poeira tu es brasileira e tambem predileta

E--------------------------------------------------
B--------------------------------------------------
G#-------------5------------3/5--------------------
E-----------5h7---------5h7------------------------
B--------5h7--------5h7----------------------------

       B7                 E               B7                E
Viola astuta que vive na luta ensinando recruta e formando poeta 

E---------11-9--5-/-7-----------------------------
B---------12-10-7-/-9-----------------------------
G#------------------------------------------------
E-------------------------------------------------
B-------------------------------------------------

                                                        B7
Viola monarca minha patriarca que veio na arca do velho noé

E-------------------------------------------------
B-------------------------------------------------
G#------------------------------------------------
E--------7-7-7-7-6-5~-----------------------------
B-------------------------------------------------

        A                E                  B7                E
Viola chancela verde e amarela mantenho com ela a tradição de pé

Segue um vídeo onde dois companheiro toca a música e prestem atenção na mão direita de ambos pois elas que fazem o ritmo da canção:




domingo, 7 de dezembro de 2014

Baiano no Coco

Segue a tablatura Baiano no Coco, tablatura transcrita pelo Daniel viola.


E----------------5-2-2--------------------------5-2-2------------
B----0-------0-4-------4------------0-------0-4-------4----------
G#---------3-------------3-1^0------------3-------------3-1^0----
E--------2---------------------2--------2---------------------2--
B--0---4--------------------------0---4--------------------------

E--------------------------------------------------------
B------0-----0-----0------0------0-----0-----0------0----
G#-------------------------------------------------------
E----------2-----4-----2/---5--------2-----4-----2/---5--
B--0-0---4-----4-----4/-----7--0---4-----4-----4/-----7--

E----------------------------------------------------------------
B----0-----0-----0-----0--------------------0-----0---0-----0----
G#---------------------------------------------------------------
E--------5-----7-----5---4--4/6----2/7--7\2-----5---------5------
B--0---7-----7-----7-----5--5/7--0------------4-----4---4-----4--

Segue a vídeo aula que ele fez:


sábado, 6 de dezembro de 2014

Pagode do Ala

Segue a Tablatura da música Pagode do Ala, tablatura transcrita pelo Daniel Viola.


E--------------------------------------------------------------
B---------0---------0-------0---------0-------0---------0------
G#-------------------------------------------------------------
E--0----------2-4/5---5-4-0-----4-5/7---7-5-0-----5-7/9---9-7--
B-----4-0---4-----------------5-----------------7--------------

E--------------------------------------------------------------------
B---------------0---------0-------0--------0-------0-------0------0--
G#-------------------------------------------------------------------
E--4/11-12-----------9-12---9-7-0-----7-11---7-5-0-----5-9---5-4-0---
B--5/12-12-10-0---10----------------9----------------7---------------

E-------------------------------
B--------0-------0-------0------
G#------------------------------
E----4-7---4-2-0-----2-5---2-0--
B--5---------------4------------

Abafado
E-----------------------------------------------------------------
B------------0---------0-------0---------0-------0---------0------
G#----------------------------------------------------------------
E----0-0---------2-4/5---5-4-0-----4-5/7---7-5-0-----5-7/9---9-7--
B--0-----4-0---4-----------------5-----------------7--------------

E--------------------------------------------------------
B------------------0---------0-------0--------0-------0--
G#-------------------------------------------------------
E--4/11-11--11-9-0------9-12---9-7-0-----7-11---7-5-0----
B--------------------10----------------9-----------------

E-----------------------------------------------
B--------0-------0-------0-------0-------0------
G#----------------------------------------------
E----5-9---5-4-0-----4-7---4-2-0-----2-5---2-0--
B--7---------------5---------------4------------

Segue a vídeo aula da música: 

sexta-feira, 19 de setembro de 2014

PRETO INOCENTE

Segue a Tablatura da música PRETO INOCENTE interpretado por Tião Carreiro e Pardinho. No blog já tem uma tablatura dessa música mas como moda de viola tem vários jeitos de tocar então segue mais essa.
Tablatura postada nesse grupo www.facebook.com/groups/violacaipiratablaturas/ pelo Juliano Braga.


E--------------------------------------------------------
B--------------------------------------------------------
G#--0----1---3-0--5--3-1-0---0-1---0-3-1-0---------------
E---0----2---4-0--5--4-2-0-2-0-2---0-4-2-0---------------
B--------------------------4-----------------------------
Quando eu "sube" deste fato pelo rádio anunciado

E--------------------------------------------------------
B--------------------------------------------------------
G#--0--1--3---0-5-3-1-0---0---1-3-1-0-0------------------
E---0--2--4---0-5-4-2-0-2-0---2-4-2-0-0------------------
B-----------------------4--------------------------------
Que um "tar" preto fugido morreu por haver roubado

E--------------------------------------------------------
B--------------------------------------------------------
G#--7-7-7-7----8-7---7-1-5-5-5---3-1--0-5-3--------------
E---7-7-7-7----9-7---7-2-5-5-5---4-2--0-5-4--------------
B--------------------------------------------------------
As "façanha" que ele fez me deixou muito "amolado"

E--------------------------------------------------------
B--------------------------------------------------------
G#--0--1-3--3---3-1--3-3--0--0--1--1--1--0---------------
E---0--2-4--4---4-2--4-4--0--0--2--2--2--0-2-------------
B------------------------------------------4-0-----------
Por "alembrar" que os "preto" sempre são os mais "visado"

E--------------------------------------------------------
B--------------------------------------------------------
G#--5--5-5-5--5--0--5-3-7--5---3--1--3--0-0--------------
E---5--5-5-5--5--0--5-4-7--5---4--2--4--0-0--------------
B--------------------------------------------------------
Mais di..ante da verdade eu vi que estava enganado

 vou contar o causo direito do modo que se passou 
 porque o pai de suzana num criminoso virou 
 na hora que deu o tiro foi que a suzana gritou 
 oh papai porque fez isso o senhor nem me consultou 
 se eu ainda estou com vida é o preto que me salvou 

 no mato eu tava lenhando logo pegou escurecer 
 o caminho que eu voltava eu não podia mais ver 
 naquilo avistei o preto de susto peguei tremer 
 mocinha não tenha medo escutei ele dizer 
 eu sou preto só na cor mal nenhum vou lhe fazer 

 eu tava muito cansada o meu corpo não agüentou 
 fui sentar debaixo dum toco uma cobra me picou 
 o preto rancou da faca o meu pé ele sangrou 
 o veneno da serpente com a boca ele tirou 
 pra salvar a minha vida com a morte ele brincou 

 e aqui nessa cabana ele trouxe eu carregando 
 e que nem um sentinela na porta ficou vigiando 
 lá fora na mata escura as feras tava uivando
 abatido pelo sono coitado foi cochilando 
 veio o senhor de surpresa e a vida foi lhe tirando 


 com as palavras de suzana o seu pai pegou chorar
 fosse coisa que eu pudesse de novo a vida eu lhe dar 
 com o sangue desse inocente minha honra eu fui manchar 
 este chão que ele pisava eu não mereço pisar 

 sei que vou ser condenado só deus pode me livrar

domingo, 27 de julho de 2014

Cadeira Vazia

Segue a tablatura da música Cadeira Vazia, pagode interpretado por João Mulato e Douradinho.
Tablatura transcrita por Igor Basso e postada nesse grupo www.facebook.com/groups/violacaipiratablaturas/


E----------------------------------------------------------
B----------------------------------------------------------
G#-----------------------------------------1----1-0---0----
E--------0-2-3-4--0-4-2---2-0--------0-2-4----2-----0---2--
B--0-2-4----------------4------0-2-4-----------------------

E----------------------------------------------------------------------
B----------------------------------------------------------------------
G#-------------3----3-1----1-0-----------------------------------------
E--------0-2-4----4------2------------0-2-3-4--0-4-2---2-0--4-2^0------
B--0-2-4------------------------0-2-4----------------4------------2/4--

Segue a cifra da música:
 E
Com essa viola no peito garanto meu dia a dia

Ela inspira meus versos junto vem a melodia
 F#                                       E
Quando eu chego no pagode tomo conta da folia
 B7                      E          B7         E B7 E
Quem não tem jeito pra coisa é de longe que espia.

SOLO

 E
Tenho dó do concorrente da maneira que ele cria

Fazendo versinhos fracos pra ouvir dá alergia
 F#                                         E
Eu respeito os meus fãs que são minha garantia
B7                     E          B7             E B7 E
Eu só gravo nos meus discos modas que tem serventia.

SOLO

 E
Tem que da o breque em coisas que de ruim não tem quantia

Modas que tem duas linhas e um refrão que dá agonia
 F#                                             E
Agulha enrosca no disco e não explica o que queria
 B7                 E           B7                E B7 E
No final é mais comprido do que a estrada rio-bahia.

SOLO

 E
Tem muitos querendo o trono de quem deixou a cantoria

Oh meu deus aqui na terra tá um clima de guerra fria
 F#                                             E
Nem daqui um milhão de anos não aparece outra magia
 B7                 E          B7            E B7 E
Meu ídolo descansa em paz a cadeira está vazia.

OBSERVAÇÃO: No começo da música, o jeito de tocar o pagode é assim...

E-----------
B-----------
G#----------
E---3^4-----
B---5-------

Faz a batida normal mas, ao invés de tocar 2-4 você irá tocar a do jeito acima, ai toca F# normal e depois volta a batida normal do pagode.

domingo, 6 de julho de 2014

Bruto, Rustico e Sistemático

Segue a tablatura da música Bruto, Rustico e Sistemático, pagode interpretado por João Carreiro e Capataz.
Tablatura foi feita pelo Bruno Ribeiro e foi postada nesse grupo
www.facebook.com/groups/violacaipiratablaturas

E--------------------------------------------------------------------
B--------4--4/9--7--5--4---------------------------------------------
G#-0--3--3--3/8--7--5--3--1/2--2--3--4--5----------------------------
E--0--4-------------------1/2--2--4--5--6----------------------------
B--------------------------------------------------------------------

E------------------------------------09/11----09--7----0-5----0-5/7--
B----0--------0------0--------0------10/12----10--9----0-7----0-7/9--
G#-----7h8------7----------------------------------------------------
E----------------------7h9------7------------------------------------
B--0--------0------0--------0------0--------0--------0------0--------

Segue o vídeo explicando como tocar esse solo:




Segue a cifra da música:

D                                            E           A7
Tudo que dá na tv minha muié qué fazê não mede as consequências
Fez um tar de topless quando vi me deu um stress
                  D   A7  D
Perdi minha paciência
                                                        D7            G  D  G
Por mim faltarar o respeito, na muié eu dei um jeito, corretivo do meu modo
     A7              D                    A7                         D
No quarto deixei trancada, quinze dia aprisionada e com ela não incomodo

      A7
Aqui não
                      D
Posso até não ser simpático
D7                 G
Comigo não tem desculpa
                   D
Minha criação é chucra
A verdade ninguem furta
              A7             D  A7  D
Sou bruto, rústico e sistemático

(Viola Caipira):

( D E A7 D A7 )

D
Fim de semana passado
                        E            A7
Conheci o namorado da minha filha caçula
                                                                         D  A7  D
Achei que não deu pareia, tava de brinco na orelha e o corpo cheio de figura
Não suportei  muito tempo
                           D7         G  D  G
Nesse relacionamento eu tive que opinar
      A7           D                          A7
Sujeitinho era roqueiro não dá certo com violeiro
                 D
Nos num ia combinar

      A7
Aqui não
                      D
Posso até não ser simpático
D7                 G
Comigo não tem desculpa
                   D
Minha criação é chucra
A verdade ninguem furta
              A7             D  A7  D
Sou bruto, rústico e sistemático

(Viola Caipira):

( D E A7 D A7 )

D                                                   E             A7
Sistema que fui criado vêr dois homem abraçado pra mim era confusão
Mulher com mulher beijando
                                               D  A7  D
Dois homens se acariciando , meu deus que decepção
                                                   D7                  G  D  G
Mas nesse mundo moderno não tem errado e nem certo achar ruim é preconceito
      A7                 D                       A7
Mas não fujo à minha essencia pra mim isso é indecencia
                         D
Ninguem vai mudar meu jeito

      A7
Aqui não
                      D
Posso até não ser simpático
D7                 G
Comigo não tem desculpa
                   D
Minha criação é chucra
A verdade ninguem furta
              A7             D  A7 D
Sou bruto, rústico e sistemático

sábado, 5 de julho de 2014

Azulão do Reino Encantado

Segue a tablatura da música Azulão do Reino Encantado, uma música onde a viola faz uma batida parecida com cururu e o violão faz o ritmo Cipó Preto.
Esta tablatura foi postada nesse grupo
www.facebook.com/groups/violacaipiratablaturas


E----7\2-----------7\2-----------7\2-----------7\2----------
B-----------0/9-----------0/7-----------0/7-----------0/9---
G#----------0/8-----------0/7-----------0/7-----------0/8---
E-----------------------------------------------------------
B--0------0------0------0------0------0------0------0-------

E----7\2------------------------------------------------0---
B-----------0/9--9-7------------------------------------0---
G#----------0/8--8-7-8-7----7-8^7----7-3----3-1----1-0--0---
E--------------------9-7----7-9^7----7-4----4-2----2-0--0---
B--0------0---------------0--------0------0------0------0---

E---0-------------0-----------------------------------------
B---0-------------0-----------------------------------------
G#--0-------------0-----------------------------------------
E---0--2-2-4-2-0--0-----------------------------------------
B---0--4-4-2-4-0--0-----------------------------------------

Segue a cifra 

E                                                   B7 E
Eu já consertei relógio a meia noite no fundo d'água
                                                B7  B7 A B7
Sem levantar o tapete com muita classe tirei o taco
                                                        B7 A B7
Eu já ganhei uma guerra sem dar um tiro e não é mentira
                                                    E   B7 E
Já fui no fundo da terra e voltei de lá sem fazer buraco

( E B7 )
                                                     B7 E
Aprendi fazer colar só de pingo d'água e ficou bonito
                                                   B7   B7 A B7
Eu fiz um laço de areia pra laçar bicho que não é fraco
                                                 B7 A B7
Amarrei onça no mato com reza brava ficou segura
                                                      E  B7 E
Carreguei ferro em brasa tição de fogo dentro de um saco

( E B7 )
                                                B7 E
Topei uma corriola só de bandidos com pau e faca
                                              B7   B7 A B7
Foi uma nuvem de poeira fiz a madeira virar cavaco
                                                      B7 A B7
Eu transformei o meu braço em uma espada que só tinia
                                                  E   B7 E
Arrebentei tantas facas veio a policia varrer os caco

( E B7 )
                                                        B7 E
Caminhei por baixo d'água igual um peixe e não sei nadar
                                                 B7   B7 A B7
Caminho que ninguém passa passo correndo e não empaco
                                                      B7 A B7
Já fiz a barba do leão sem usar sabão e sem a navalha
                                             E     B7 E
Com a jamanta correndo troco pneu sem usar macaco

( E B7 )
                                                     B7 E
O meu protetor é forte é o azulão do reino encantado
                                               B7  B7 A B7
Um salão todo azulado que tem no céu ele foi morar
                                                    B7 A B7
E com sete santas virgens neste salão o azulão está
                                              E  B7 E

E duas vezes por dia este salão Deus vai visitar