sábado, 21 de março de 2015

Moça Caipira - Goiano e Paranaense

Tablatura da música Moça Caipira interpretada por Goiano e Paranaense, tablatura feita por Sergio Rubin.


E------------------------------------------------
B------------------7-----------------7-----------
G#---------------7-----------------7----7-8-7----
E—-7/12-12-12--7------7/12-12/12-7------7-9-7-8--
B---------------------------------------------9--

E---------------------------------------------
B-------------4-2------------2-2^4-2^0-2-0----
G#----------2--------------2---------------4--
E—--4/5\4-2--------4/5\4-2--------------------
B---------------------------------------------

E-------------4------------4-2^4-2^0-2-4/5-5--0-0-0--
B---------4-2----------4-2--------------------0-0-0--
G#--2^3-2--------2^3-2------------------------0-0-0--
E—--------------------------------------------0-0-0--
B---------------------------------------------0-0-0--

E---2/5-5----------------4------------------4-0-4--------------4-2-0--
B---------4-4/7------------2----------2^4-2-------2/7-/7~--2^0--------
G#--------------8-7^8\2------3----------------------------------------
E—-----------------------------4-2^4----------------------------------
B---------------------------------------------------------------------

Ainda não achei a cifra dessa música, quem souber comenta ai^^


Dona Felicidade - Zico e Zeca


Tablatura da música Dona Felicidade interpretada por Zico e Zeca, tablatura feita por Sergio Rubin.

|-------------------------------------------------------------------0
|--0-0-0---0-2-0-0-5-5-5-4-5-7-5-4-|4-4-4-5-7-9-10-9|-7-9-7-5-3-3-0-0
|--0-0-0-1-0-1-0-0-5-5-5-3-5-7-5-3-|3-3-3-5-7-8-10-8|-7-8-7-5-3-3-0-0
|--------2----------------------------------------------------------0
|-------------------------------------------------------------------0

|------------------------------------------0
|--0-5-4-2-0-0-4-2-0-----------------------0
|--0-5-3-1-0-0-3-1-0-0-5-3-1—1-2/7-7~3-1-0-0
|--------------------0-5-4-2—2-1/7-7~4-2-0-0
|------------------------------------------0

Quem passar naquela estrada, vê uma casinha amarela.
e uma varanda enfeitada e um canário na janela.
Tem um um jardim um pé de jasmim,
Feliz assim eu vivo com ela.

Salto da cama cantando, bem antes que o sol esquente.
No fogão tá me esperando um cafezinho bem quente.
Tomo um golinho e vou pro caminho
E um cigarrinho eu pito contente.

Quando o sol vai se escondendo pra aliviar o meu cansaço.
Vem o caçula correndo se pendura nos meus braços.
Papai me fala cadê as balas,
Dentro do pala eu levo um maço.

Minha vida é uma beleza, dizem até que eu sou graúdo.
Eu tenho a maior riqueza, meu bando de barrigudos.
minha morada não falta nada,
Com minha amada nós tem de tudo.

Agora eu vou pedir ai, pra dona felicidade.
Pra ela nunca mais sair ai, do meu rancho de saudade.
Se ela atender e eu merecer,
Feliz vou ser pra eternidade.

terça-feira, 10 de março de 2015

A Cachaça e o Fumo

Tablatura da música A Cachaça e o Fumo, música interpretada por Dino Franco e Mouraí.


D------------------------------------------------
A------------7-----------------------------------
F#-8-8-8-7-8-7--7--7-7-7-7-7-8-7--7-7-5-5-3-5-1--
D--9-9-9-7-9----7--7-7-7-7-7-9-7--7-7-5-5-4-5-2--
A------------------------------------------------

D-----------------------------------------------
A-----------------------------------------------
F#-7-7-7-7-7-8--7-7-5-5-5-3-5--5-5-3-3-3-1-3-0--
D--7-7-7-7-7-9--7-7-5-5-5-4-5--5-5-4-4-4-2-4-0--
A-----------------------------------------------

D---------------------------------------------7--
A---------------------------------------------7--
F#-0-0-3-3-3-1-3-3-3-2-2-2-0-2-2-2---------7--7--
D--0-0-4-4-4-2-4-4-4-2-2-2-0-2-2-2-2-2-0---7--7--
A----------------------------------4-4-2-0-0--7--

D--------------------------------------------------12--
A--------------------------------------------------12--
F#-7-7-7-7-7-8-7--7-7-5-5-5-5-3--3-3-1-1-3-3-0--0--12--
D--7-7-7-7-7-9-7--7-7-5-5-5-5-4--4-4-2-2-4-4-0--0--12--
A--------------------------------------------------12--

Marvada Pinga

Tablatura da música Marvada Pinga, canção interpretada pela Inezita Barroso. 
Tablatura da música toda cantada e quem quiser tocar normal o ritmo é Cururu.

Intro
--------------------------------------------
--0-0-0-2-4-4--2-0---------0-0-2-2-0--------
-------------------1-0-0-0-----------1-0----
-----------------------------------------2--
--------------------------------------------

Solo
-------------------------------------------------------------
--5-5-5-5-5-5-4-2-0---4-4-4-2-4-4-2-0-----2-2-2-0-2-2-0------
--------------------1-----------------1-0---------------1-0--
-------------------------------------------------------------
-------------------------------------------------------------

---------------------------------------------------
--------------------------0-0-0-2-4-4-4-0-0---0----
--------------------------------------------0---0--
--2-2-2-2-0-2-2-2-2-0------------------------------
----------------------4-4--------------------------

-------------------------------------------------------------------
--5-5-5-5-5-5-5-4-2-0---4-4-4-2-4-4-4-0-0-----2-0-2-0-2-2-2-0------
----------------------1-------------------0-0-----------------1-0--
-------------------------------------------------------------------
-------------------------------------------------------------------

-----------------------------------------------------------
----------------------------0-0-0-0-2-4-4-4-4-0-0-----0----
--------------------------------------------------0-0---0--
--2-2-2-2-0-2-2-2-2-2-0------------------------------------
------------------------4-4--------------------------------

----------0-0------------------------------------------------
--5-5-5-5-----4-2-0-----0-0-0---4-4-4-0-0-----2-2-2-0-2-2-0--
--------------------1-1-------1-----------0-0----------------
-------------------------------------------------------------
-------------------------------------------------------------

-----------------------------------------0--
----------0-0-0-2-4-4-4-0-0---0-0-0------0--
--1-0-----------------------0-------1-0--0--
------2-2--------------------------------0--
-----------------------------------------0--

Cifra:

E                                   B7
Com a marvada pinga É que eu me atrapaio
                                E
Eu entro na venda e já dou meu taio
         A              B7
Pego no copo e dali nun saio
Ali memo eu bebo Ali memo eu caio
                               E    B7  E  E B7
Só pra carregar é que eu dô trabaio Oi iá


E                             B7
Venho da cidade e já venho cantando
                               E
Trago um garrafão que venho chupando
                               B7
Venho pros caminho, venho trupicando,
 xifrando os barranco, venho cambetiando
                                   E    B7  E  E B7
E no lugar que eu caio já fico roncando Oi iá


E                           B7                              E
O marido me disse, ele me falo: "largue de bebê, peço por favô"
            A              B7
Prosa de homem nunca dei valô             
Bebo com o sor quente pra esfriar o calô
                              E  B7  E  E B7
E bebo de noite é prá fazê suadô Oi iá


E                              B7
Cada vez que eu caio, caio deferente 
                        E 
Meaço pá trás e caio pá frente, caio devagar, 
          B7                                  
caio de repente, vô de corrupio, vô deretamente
                               E     B7 E   E B7
Mas sendo de pinga, eu caio contente Oi iá


E                         B7                                  E
Pego o garrafão e já balanceio que é pá mor de vê se tá mesmo cheio
            A               B7               
Não bebo de vez porque acho feio No primeiro gorpe chego inté no meio
                               E    B7  E  E B7
No segundo trago é que eu desvazeio Oi iá


E                             B7                                 E
Eu bebo da pinga porque gosto dela Eu bebo da branca, bebo da amarela
                         B7                     
Bebo nos copo, bebo na tijela E bebo temperada com cravo e canela
                                  E    B7  E  B7 E
Seja quarqué tempo, vai pinga na guela Oi iá


Ê marvada pinga!


E                           B7                             E
Eu fui numa festa no Rio Tietê Eu lá fui chegando no amanhecê
                           B7
Já me dero pinga pra mim bebê 
                           E         B7     E  E B7
Lá me dero pinga pra mim bebê e tava sem fervê


E                         B7                              E
Eu bebi demais e fiquei mamada Eu cai no chão e fiquei deitada
                            B7
Ai eu fui prá casa de braço dado
                                 E
Ai de braço dado, ai com dois sordado
       B7    E     E B7 E
Ai muito obrigado!















domingo, 1 de fevereiro de 2015

Iron Man - Black Sabbath

Tablatura do solo que o Jean F. Dutra fez da música Iron Man da banda de Rock a Black Sabbath.

Pessoal, esse é um solo de música de rock na viola e quem não gostar desse tipo de "transação" do rock para a viola basta apenas ignorar a tablatura.


---------------------------------------
---------------------------------------
---------------------------------------
--------0-0----3-2--3-2--3-2------0-0--
-0-3--3-----------------------3-3------

--------------------------------
--------------------------------
------------2-1-1-1------1-1-1--
-----0---------------0-4--------
-0-0----0-0---------------------

---------------------
---------------------
------------2-1-1-1--
-----0---------------
-0-0----0-0----------

quarta-feira, 28 de janeiro de 2015

Linha de Frente - Tião Carreiro

Tablatura da música Linha de Frente, Pagode cantado por Tião Carreiro e Pardinho.

E---------------------------------------------
B---------------------------------------------
G#--8/0------1^0---0-----------------1^0---0--
E----------2-----2---5-4-2---------2-----2----
B--------0-----------------5-4-2-0------------

E----------------------------------------------------
B----------------------------------------------------
G#--8/0------1^0---0-3-1-----------------------------
E----------2-----2-------4-2------------------2-3-4--
B--------0-------------------5-4-2-0--0-2-4-5--------

 E             B7              E 
Pra cantar pagode eu tirei patente 
Meu peito é bom e eu sou competente 
             B7 
Eu não tomo Toddy e nem ovo quente 
                             E 
Morra meu passado viva o presente 
Que o meu futuro está pela frente 
        B7                E 
O meu pagode pra mim não mente 

E            B7              E 
Na mão do covarde morre o valente 
O cachorro bravo esta na corrente 
           B7 
O amor ingrato é que mata a gente 
                             E 
Mulher faladeira tem meus parentes 
O marido dela é tão decente 
         B7            E 
Mas a danada é uma serpente 

E            B7             E 
Paulista trabalha São Paulo anda 
São Paulo cresce por toda banda 
           B7 
O mineiro tem o ouro que manda 
                       E 
O povo gaúcho é de opinião 
Tem gente que força a oposição 
          B7            E 
Mas a gauchada não foge não 

E          B7            E 
O povo do norte é inteligente 
O Ruy Barbosa deixou semente 
         B7 
O povo baiano orgulhoso sente 
                         E 
O paranaense é bom no batente 
O nosso Brasil tem bom presidente 
           B7              E 
Nóis no pagode é linha de frente 

sexta-feira, 23 de janeiro de 2015

Cubanita - Almir Sater



Tablatura da música Cubanita, música interpretada por Almir Sater. Tablatura transcrita e postada no grupo http://www.facebook.com/groups/violacaipiratablaturas/
 pelo Alexandre Oliveira

E--8--6--10-----10----8-----10------6---6----5--8-----3---3---3---1---
 B---------------------------------------------------------------------
G#-7--6--09--09-----7----09------6--6--6---4----7--2--2--2--2----1----
E---------------------------------------------------------------------
 B---------------------------------------------------------------------

E---6-------------------------10--10----8--8--13----6----6----5--5--8----3---
B--------4---4---------------------------------------------------------------
G#--6----------------------/9---09--7----7--13--6----6----4----4--7--2-------
E------3---3---------6-8--------------------------------------------------
B---------------6/8----------------------------------------------------------

E-----3----1--1-1-------------
B--------------------4----4---
G#--2----1----1-1-------------
E------------------3----3-----
B-----------------------------

sábado, 27 de dezembro de 2014

Mantendo a Tradição - Goiano e Paranaense

Tablatura da música Mantendo a Tradição, música interpretada pela dupla Goiano e Paranaense.
Tablatura transcrita por Allan Turilli e postada no grupo www.facebook.com/groups/violacaipiratablaturas/



intro: E B7 E (Eb Bb7)

E----------------------------\11---11-11-11-11---9---4-5-7----
  B----------------------------\12---12-12-12-12---10--5-7-9----
G#--\8---8-8--------------------------------------------------
E-------------5-4-2-------------------------------------------
B-------------------4-0---------------------------------------

E----------------------------\11---11-11-11-11---9---7-5-4----
B----------------------------\12---12-12-12-12---10--9-7-5----
G#--\8---8-8--------------------------------------------------
E-------------5-4-2-------------------------------------------
B-------------------4-0---------------------------------------

                                                         B7
viola pastora minha professora fiel defensora de uma tradição

E-----5-2----------------------------------------------------
B--------4---------------------------------------------------
G#---------3-------------------------------------------------
E------------2-----------------------------------------------
B--------------0--------------------------------------------
                              E                   B7            E     E7
Viola muralha que trouxe a medalha do chapeu de palha da nossa canção

E-----11--9-5-4----------------------------------------------
B-----12-10-7-5----------------------------------------------
G#----------------------------------------------------------
E-----------------------------------------------------------
B-----------------------------------------------------------

        A                              E           A
Viola cristã minha anfitriã alcova e divã da inspiração

E-------12-11-10-8/9----------------------------------------
B-----------------------------------------------------------
G#----------------------------------------------------------
E-----------------------------------------------------------
B-----------------------------------------------------------

       B7                 E              B7                 E
Viola batina que tanto fascina tu es a vitrine e retrata o sertão

E-----------------------------------------------------------
B-----------------------------------------------------------
G#---------7---5---1----0-----------------------------------
E---------7---5---2----0------------------------------------
B-----------------------------------------------------------

      E                                                  B7
Viola monarca minha patriarca que veio na arca do velho noé

E-----------------------------------------------------------
B-----------------------------------------------------------
G#------------------/10~------------------------------------
E---------/7~-----------------------------------------------
B-----------------------------------------------------------

        A                E                  B7                E
Viola chancela verde e amarela mantenho com ela a tradição de pé 

intro

E----------------------------\11---11-11-11-11---9---4-5-7----
B----------------------------\12---12-12-12-12---10--5-7-9----
G#--\8---8-8--------------------------------------------------
E-------------5-4-2-------------------------------------------
B-------------------4-0---------------------------------------

E----------------------------\11---11-11-11-11---9---7-5-4----
B----------------------------\12---12-12-12-12---10--9-7-5----
G#--\8---8-8--------------------------------------------------
E-------------5-4-2-------------------------------------------
B-------------------4-0---------------------------------------

                                                              B7
Viola herança que estampa lembrança e revela infancia do meu dia dia 


E-----5-2------------------------------------
B--------4-----------------------------------
G#---------3---------------------------------
E------------2-------------------------------
B--------------0-----------------------------

                            E                B7             E    E7
Viola de prata seu leito retrata que veio da nata trazendo harmonia

E---------------------------------------------
B---------------------------------------------
G#----------7-6-5-3~--------------------------
E-----------7-6-5-4~--------------------------
B---------------------------------------------

         A                                    E             A
Viola universo esteio e progresso do grande sucesso das melodias

E---------12-9--------------------------------
B------9--------------------------------------
G#--------------------------------------------
E---------------------------------------------
B---------------------------------------------

        B7                     E               B7           E
Viola essencia que embala a inocencia da sobrevivencia da poesia

E--------------------------------
B----------------------------------------------
G#----------7--5--1--0~-----------------------------
E----------7--5--2--0~------------------------------
B----------------------------------------------

       E                                                B7
Viola monarca minha patriarca que veio na arca do velho noé 

E-----5--2-------------------------------------
B----------4-----------------------------------
G#---------------------------------------------
E----------------------------------------------
B------------4h5p4-----------------------------

       A                 E                  B7                E
Viola chancela verde e amarela mantenho com ela a tradição de pé 

intro

E----------------------------\11---11-11-11-11---9---4-5-7----
B----------------------------\12---12-12-12-12---10--5-7-9----
G#--\8---8-8--------------------------------------------------
E-------------5-4-2-------------------------------------------
B-------------------4-0---------------------------------------

E----------------------------\11---11-11-11-11---9---7-5-4----
B----------------------------\12---12-12-12-12---10--9-7-5----
G#--\12---12-12-----------------------------------------------
E---------------5-4-2-----------------------------------------
B---------------------4-0-------------------------------------

E---------------------------
B---------------------------
G#--------7-6-5-3~----------
E---------7-6-5-4~----------
B---------------------------

E                                                  B7
Viola bastão elo da união da nossa canção raiz e direta

E------5-2------------------------------
B----------4----------------------------
G#-----------3--------------------------
E--------------2------------------------
B----------------4----------------------

                         E                B7               E      E7
Viola patroa que canta e entoa por musica boa esta sempre alerta

E------------11-10-9--7~-----------
B------------12-11-10-9~-----------
G#---------------------------------
E----------------------------------
B----------------------------------
t
          A                                E                   A
Viola breijeira que cheira poeira tu es brasileira e tambem predileta

E--------------------------------------------------
B--------------------------------------------------
G#-------------5------------3/5--------------------
E-----------5h7---------5h7------------------------
B--------5h7--------5h7----------------------------

       B7                 E               B7                E
Viola astuta que vive na luta ensinando recruta e formando poeta 

E---------11-9--5-/-7-----------------------------
B---------12-10-7-/-9-----------------------------
G#------------------------------------------------
E-------------------------------------------------
B-------------------------------------------------

                                                        B7
Viola monarca minha patriarca que veio na arca do velho noé

E-------------------------------------------------
B-------------------------------------------------
G#------------------------------------------------
E--------7-7-7-7-6-5~-----------------------------
B-------------------------------------------------

        A                E                  B7                E
Viola chancela verde e amarela mantenho com ela a tradição de pé

Segue um vídeo onde dois companheiro toca a música e prestem atenção na mão direita de ambos pois elas que fazem o ritmo da canção:




domingo, 7 de dezembro de 2014

Baiano no Coco

Segue a tablatura Baiano no Coco, tablatura transcrita pelo Daniel viola.


E----------------5-2-2--------------------------5-2-2------------
B----0-------0-4-------4------------0-------0-4-------4----------
G#---------3-------------3-1^0------------3-------------3-1^0----
E--------2---------------------2--------2---------------------2--
B--0---4--------------------------0---4--------------------------

E--------------------------------------------------------
B------0-----0-----0------0------0-----0-----0------0----
G#-------------------------------------------------------
E----------2-----4-----2/---5--------2-----4-----2/---5--
B--0-0---4-----4-----4/-----7--0---4-----4-----4/-----7--

E----------------------------------------------------------------
B----0-----0-----0-----0--------------------0-----0---0-----0----
G#---------------------------------------------------------------
E--------5-----7-----5---4--4/6----2/7--7\2-----5---------5------
B--0---7-----7-----7-----5--5/7--0------------4-----4---4-----4--

Segue a vídeo aula que ele fez:


sábado, 6 de dezembro de 2014

Pagode do Ala

Segue a Tablatura da música Pagode do Ala, tablatura transcrita pelo Daniel Viola.


E--------------------------------------------------------------
B---------0---------0-------0---------0-------0---------0------
G#-------------------------------------------------------------
E--0----------2-4/5---5-4-0-----4-5/7---7-5-0-----5-7/9---9-7--
B-----4-0---4-----------------5-----------------7--------------

E--------------------------------------------------------------------
B---------------0---------0-------0--------0-------0-------0------0--
G#-------------------------------------------------------------------
E--4/11-12-----------9-12---9-7-0-----7-11---7-5-0-----5-9---5-4-0---
B--5/12-12-10-0---10----------------9----------------7---------------

E-------------------------------
B--------0-------0-------0------
G#------------------------------
E----4-7---4-2-0-----2-5---2-0--
B--5---------------4------------

Abafado
E-----------------------------------------------------------------
B------------0---------0-------0---------0-------0---------0------
G#----------------------------------------------------------------
E----0-0---------2-4/5---5-4-0-----4-5/7---7-5-0-----5-7/9---9-7--
B--0-----4-0---4-----------------5-----------------7--------------

E--------------------------------------------------------
B------------------0---------0-------0--------0-------0--
G#-------------------------------------------------------
E--4/11-11--11-9-0------9-12---9-7-0-----7-11---7-5-0----
B--------------------10----------------9-----------------

E-----------------------------------------------
B--------0-------0-------0-------0-------0------
G#----------------------------------------------
E----5-9---5-4-0-----4-7---4-2-0-----2-5---2-0--
B--7---------------5---------------4------------

Segue a vídeo aula da música: 

sexta-feira, 19 de setembro de 2014

PRETO INOCENTE

Segue a Tablatura da música PRETO INOCENTE interpretado por Tião Carreiro e Pardinho. No blog já tem uma tablatura dessa música mas como moda de viola tem vários jeitos de tocar então segue mais essa.
Tablatura postada nesse grupo www.facebook.com/groups/violacaipiratablaturas/ pelo Juliano Braga.


E--------------------------------------------------------
B--------------------------------------------------------
G#--0----1---3-0--5--3-1-0---0-1---0-3-1-0---------------
E---0----2---4-0--5--4-2-0-2-0-2---0-4-2-0---------------
B--------------------------4-----------------------------
Quando eu "sube" deste fato pelo rádio anunciado

E--------------------------------------------------------
B--------------------------------------------------------
G#--0--1--3---0-5-3-1-0---0---1-3-1-0-0------------------
E---0--2--4---0-5-4-2-0-2-0---2-4-2-0-0------------------
B-----------------------4--------------------------------
Que um "tar" preto fugido morreu por haver roubado

E--------------------------------------------------------
B--------------------------------------------------------
G#--7-7-7-7----8-7---7-1-5-5-5---3-1--0-5-3--------------
E---7-7-7-7----9-7---7-2-5-5-5---4-2--0-5-4--------------
B--------------------------------------------------------
As "façanha" que ele fez me deixou muito "amolado"

E--------------------------------------------------------
B--------------------------------------------------------
G#--0--1-3--3---3-1--3-3--0--0--1--1--1--0---------------
E---0--2-4--4---4-2--4-4--0--0--2--2--2--0-2-------------
B------------------------------------------4-0-----------
Por "alembrar" que os "preto" sempre são os mais "visado"

E--------------------------------------------------------
B--------------------------------------------------------
G#--5--5-5-5--5--0--5-3-7--5---3--1--3--0-0--------------
E---5--5-5-5--5--0--5-4-7--5---4--2--4--0-0--------------
B--------------------------------------------------------
Mais di..ante da verdade eu vi que estava enganado

 vou contar o causo direito do modo que se passou 
 porque o pai de suzana num criminoso virou 
 na hora que deu o tiro foi que a suzana gritou 
 oh papai porque fez isso o senhor nem me consultou 
 se eu ainda estou com vida é o preto que me salvou 

 no mato eu tava lenhando logo pegou escurecer 
 o caminho que eu voltava eu não podia mais ver 
 naquilo avistei o preto de susto peguei tremer 
 mocinha não tenha medo escutei ele dizer 
 eu sou preto só na cor mal nenhum vou lhe fazer 

 eu tava muito cansada o meu corpo não agüentou 
 fui sentar debaixo dum toco uma cobra me picou 
 o preto rancou da faca o meu pé ele sangrou 
 o veneno da serpente com a boca ele tirou 
 pra salvar a minha vida com a morte ele brincou 

 e aqui nessa cabana ele trouxe eu carregando 
 e que nem um sentinela na porta ficou vigiando 
 lá fora na mata escura as feras tava uivando
 abatido pelo sono coitado foi cochilando 
 veio o senhor de surpresa e a vida foi lhe tirando 


 com as palavras de suzana o seu pai pegou chorar
 fosse coisa que eu pudesse de novo a vida eu lhe dar 
 com o sangue desse inocente minha honra eu fui manchar 
 este chão que ele pisava eu não mereço pisar 

 sei que vou ser condenado só deus pode me livrar

domingo, 27 de julho de 2014

Cadeira Vazia

Segue a tablatura da música Cadeira Vazia, pagode interpretado por João Mulato e Douradinho.
Tablatura transcrita por Igor Basso e postada nesse grupo www.facebook.com/groups/violacaipiratablaturas/


E----------------------------------------------------------
B----------------------------------------------------------
G#-----------------------------------------1----1-0---0----
E--------0-2-3-4--0-4-2---2-0--------0-2-4----2-----0---2--
B--0-2-4----------------4------0-2-4-----------------------

E----------------------------------------------------------------------
B----------------------------------------------------------------------
G#-------------3----3-1----1-0-----------------------------------------
E--------0-2-4----4------2------------0-2-3-4--0-4-2---2-0--4-2^0------
B--0-2-4------------------------0-2-4----------------4------------2/4--

Segue a cifra da música:
 E
Com essa viola no peito garanto meu dia a dia

Ela inspira meus versos junto vem a melodia
 F#                                       E
Quando eu chego no pagode tomo conta da folia
 B7                      E          B7         E B7 E
Quem não tem jeito pra coisa é de longe que espia.

SOLO

 E
Tenho dó do concorrente da maneira que ele cria

Fazendo versinhos fracos pra ouvir dá alergia
 F#                                         E
Eu respeito os meus fãs que são minha garantia
B7                     E          B7             E B7 E
Eu só gravo nos meus discos modas que tem serventia.

SOLO

 E
Tem que da o breque em coisas que de ruim não tem quantia

Modas que tem duas linhas e um refrão que dá agonia
 F#                                             E
Agulha enrosca no disco e não explica o que queria
 B7                 E           B7                E B7 E
No final é mais comprido do que a estrada rio-bahia.

SOLO

 E
Tem muitos querendo o trono de quem deixou a cantoria

Oh meu deus aqui na terra tá um clima de guerra fria
 F#                                             E
Nem daqui um milhão de anos não aparece outra magia
 B7                 E          B7            E B7 E
Meu ídolo descansa em paz a cadeira está vazia.

OBSERVAÇÃO: No começo da música, o jeito de tocar o pagode é assim...

E-----------
B-----------
G#----------
E---3^4-----
B---5-------

Faz a batida normal mas, ao invés de tocar 2-4 você irá tocar a do jeito acima, ai toca F# normal e depois volta a batida normal do pagode.